  0
SECTION
  2
HEADER
  9
$ACADVER
  1
AC1015
  9
$ACADMAINTVER
 70
     6
  9
$DWGCODEPAGE
  3
ANSI_1254
  9
$INSBASE
 10
0.0
 20
0.0
 30
0.0
  9
$EXTMIN
 10
0.0
 20
0.0
 30
0.0
  9
$EXTMAX
 10
279.4
 20
215.9
 30
0.0
  9
$LIMMIN
 10
0.0
 20
0.0
  9
$LIMMAX
 10
279.4
 20
215.9
  9
$ORTHOMODE
 70
     0
  9
$REGENMODE
 70
     1
  9
$FILLMODE
 70
     1
  9
$QTEXTMODE
 70
     0
  9
$MIRRTEXT
 70
     1
  9
$LTSCALE
 40
1.0
  9
$ATTMODE
 70
     1
  9
$TEXTSIZE
 40
3.5
  9
$TRACEWID
 40
1.0
  9
$TEXTSTYLE
  7
Standard
  9
$CLAYER
  8
0
  9
$CELTYPE
  6
ByLayer
  9
$CECOLOR
 62
   256
  9
$CELTSCALE
 40
1.0
  9
$DISPSILH
 70
     0
  9
$DIMSCALE
 40
1.0
  9
$DIMASZ
 40
3.5
  9
$DIMEXO
 40
1.0
  9
$DIMDLI
 40
3.75
  9
$DIMRND
 40
0.0
  9
$DIMDLE
 40
0.0
  9
$DIMEXE
 40
1.0
  9
$DIMTP
 40
0.0
  9
$DIMTM
 40
0.0
  9
$DIMTXT
 40
3.5
  9
$DIMCEN
 40
2.5
  9
$DIMTSZ
 40
0.0
  9
$DIMTOL
 70
     0
  9
$DIMLIM
 70
     0
  9
$DIMTIH
 70
     1
  9
$DIMTOH
 70
     1
  9
$DIMSE1
 70
     0
  9
$DIMSE2
 70
     0
  9
$DIMTAD
 70
     1
  9
$DIMZIN
 70
     0
  9
$DIMBLK
  1

  9
$DIMASO
 70
     1
  9
$DIMSHO
 70
     1
  9
$DIMPOST
  1

  9
$DIMAPOST
  1

  9
$DIMALT
 70
     0
  9
$DIMALTD
 70
     3
  9
$DIMALTF
 40
0.0393700787
  9
$DIMLFAC
 40
1.0
  9
$DIMTOFL
 70
     1
  9
$DIMTVP
 40
0.0
  9
$DIMTIX
 70
     0
  9
$DIMSOXD
 70
     0
  9
$DIMSAH
 70
     0
  9
$DIMBLK1
  1

  9
$DIMBLK2
  1

  9
$DIMSTYLE
  2
ISO-25
  9
$DIMCLRD
 70
     0
  9
$DIMCLRE
 70
     0
  9
$DIMCLRT
 70
     0
  9
$DIMTFAC
 40
1.0
  9
$DIMGAP
 40
1.524
  9
$DIMJUST
 70
     0
  9
$DIMSD1
 70
     0
  9
$DIMSD2
 70
     0
  9
$DIMTOLJ
 70
     0
  9
$DIMTZIN
 70
     0
  9
$DIMALTZ
 70
     0
  9
$DIMALTTZ
 70
     0
  9
$DIMUPT
 70
     0
  9
$DIMDEC
 70
     2
  9
$DIMTDEC
 70
     2
  9
$DIMALTU
 70
     2
  9
$DIMALTTD
 70
     3
  9
$DIMTXSTY
  7
Standard
  9
$DIMAUNIT
 70
     0
  9
$DIMADEC
 70
     2
  9
$DIMALTRND
 40
0.0
  9
$DIMAZIN
 70
     0
  9
$DIMDSEP
 70
    44
  9
$DIMATFIT
 70
     3
  9
$DIMFRAC
 70
     0
  9
$DIMLDRBLK
  1

  9
$DIMLUNIT
 70
     2
  9
$DIMLWD
 70
    -2
  9
$DIMLWE
 70
    -2
  9
$DIMTMOVE
 70
     0
  9
$LUNITS
 70
     2
  9
$LUPREC
 70
     2
  9
$SKETCHINC
 40
1.0
  9
$FILLETRAD
 40
10.0
  9
$AUNITS
 70
     0
  9
$AUPREC
 70
     2
  9
$MENU
  1
.
  9
$ELEVATION
 40
0.0
  9
$PELEVATION
 40
0.0
  9
$THICKNESS
 40
0.0
  9
$LIMCHECK
 70
     0
  9
$CHAMFERA
 40
0.0
  9
$CHAMFERB
 40
0.0
  9
$CHAMFERC
 40
0.0
  9
$CHAMFERD
 40
0.0
  9
$SKPOLY
 70
     0
  9
$TDCREATE
 40
2459921.536954375
  9
$TDUCREATE
 40
2459921.411954375
  9
$TDUPDATE
 40
2459921.536954502
  9
$TDUUPDATE
 40
2459921.411954502
  9
$TDINDWG
 40
0.0000000116
  9
$TDUSRTIMER
 40
0.0000000116
  9
$USRTIMER
 70
     1
  9
$ANGBASE
 50
0.0
  9
$ANGDIR
 70
     0
  9
$PDMODE
 70
     0
  9
$PDSIZE
 40
-1.0
  9
$PLINEWID
 40
0.0
  9
$SPLFRAME
 70
     0
  9
$SPLINETYPE
 70
     6
  9
$SPLINESEGS
 70
     8
  9
$HANDSEED
  5
CC
  9
$SURFTAB1
 70
     6
  9
$SURFTAB2
 70
     6
  9
$SURFTYPE
 70
     6
  9
$SURFU
 70
     6
  9
$SURFV
 70
     6
  9
$UCSBASE
  2

  9
$UCSNAME
  2

  9
$UCSORG
 10
0.0
 20
0.0
 30
0.0
  9
$UCSXDIR
 10
1.0
 20
0.0
 30
0.0
  9
$UCSYDIR
 10
0.0
 20
1.0
 30
0.0
  9
$UCSORTHOREF
  2

  9
$UCSORTHOVIEW
 70
     0
  9
$UCSORGTOP
 10
0.0
 20
0.0
 30
0.0
  9
$UCSORGBOTTOM
 10
0.0
 20
0.0
 30
0.0
  9
$UCSORGLEFT
 10
0.0
 20
0.0
 30
0.0
  9
$UCSORGRIGHT
 10
0.0
 20
0.0
 30
0.0
  9
$UCSORGFRONT
 10
0.0
 20
0.0
 30
0.0
  9
$UCSORGBACK
 10
0.0
 20
0.0
 30
0.0
  9
$PUCSBASE
  2

  9
$PUCSNAME
  2

  9
$PUCSORG
 10
0.0
 20
0.0
 30
0.0
  9
$PUCSXDIR
 10
1.0
 20
0.0
 30
0.0
  9
$PUCSYDIR
 10
0.0
 20
1.0
 30
0.0
  9
$PUCSORTHOREF
  2

  9
$PUCSORTHOVIEW
 70
     0
  9
$PUCSORGTOP
 10
0.0
 20
0.0
 30
0.0
  9
$PUCSORGBOTTOM
 10
0.0
 20
0.0
 30
0.0
  9
$PUCSORGLEFT
 10
0.0
 20
0.0
 30
0.0
  9
$PUCSORGRIGHT
 10
0.0
 20
0.0
 30
0.0
  9
$PUCSORGFRONT
 10
0.0
 20
0.0
 30
0.0
  9
$PUCSORGBACK
 10
0.0
 20
0.0
 30
0.0
  9
$USERI1
 70
     0
  9
$USERI2
 70
     0
  9
$USERI3
 70
     0
  9
$USERI4
 70
     0
  9
$USERI5
 70
     0
  9
$USERR1
 40
0.0
  9
$USERR2
 40
0.0
  9
$USERR3
 40
0.0
  9
$USERR4
 40
0.0
  9
$USERR5
 40
0.0
  9
$WORLDVIEW
 70
     1
  9
$SHADEDGE
 70
     3
  9
$SHADEDIF
 70
    70
  9
$TILEMODE
 70
     1
  9
$MAXACTVP
 70
    64
  9
$PINSBASE
 10
0.0
 20
0.0
 30
0.0
  9
$PLIMCHECK
 70
     0
  9
$PEXTMIN
 10
1.0000000000E+20
 20
1.0000000000E+20
 30
1.0000000000E+20
  9
$PEXTMAX
 10
-1.0000000000E+20
 20
-1.0000000000E+20
 30
-1.0000000000E+20
  9
$PLIMMIN
 10
0.0
 20
0.0
  9
$PLIMMAX
 10
420.0
 20
297.0
  9
$UNITMODE
 70
     0
  9
$VISRETAIN
 70
     1
  9
$PLINEGEN
 70
     0
  9
$PSLTSCALE
 70
     1
  9
$TREEDEPTH
 70
  3020
  9
$CMLSTYLE
  2
Standard
  9
$CMLJUST
 70
     0
  9
$CMLSCALE
 40
20.0
  9
$PROXYGRAPHICS
 70
     1
  9
$MEASUREMENT
 70
     1
  9
$CELWEIGHT
370
    -1
  9
$ENDCAPS
280
     0
  9
$JOINSTYLE
280
     0
  9
$LWDISPLAY
290
     1
  9
$INSUNITS
 70
     4
  9
$HYPERLINKBASE
  1

  9
$STYLESHEET
  1

  9
$XEDIT
290
     1
  9
$CEPSNTYPE
380
     0
  9
$PSTYLEMODE
290
     1
  9
$FINGERPRINTGUID
  2
{7744ac3b-a2b6-4348-b034-66184831f627}
  9
$VERSIONGUID
  2
{FAEB1C32-E019-11D5-929B-00C0DF256EC4}
  9
$EXTNAMES
290
     1
  9
$PSVPSCALE
 40
0.0
  9
$OLESTARTUP
290
     0
  0
ENDSEC
  0
SECTION
  2
CLASSES
  0
CLASS
  1
ACDBDICTIONARYWDFLT
  2
AcDbDictionaryWithDefault
  3
ObjectDBX Classes
 90
        0
280
     0
281
     0
  0
CLASS
  1
VISUALSTYLE
  2
AcDbVisualStyle
  3
ObjectDBX Classes
 90
     4095
280
     0
281
     0
  0
CLASS
  1
MATERIAL
  2
AcDbMaterial
  3
ObjectDBX Classes
 90
     1153
280
     0
281
     0
  0
CLASS
  1
SCALE
  2
AcDbScale
  3
ObjectDBX Classes
 90
     1153
280
     0
281
     0
  0
CLASS
  1
TABLESTYLE
  2
AcDbTableStyle
  3
ObjectDBX Classes
 90
     4095
280
     0
281
     0
  0
CLASS
  1
MLEADERSTYLE
  2
AcDbMLeaderStyle
  3
ACDB_MLEADERSTYLE_CLASS
 90
     4095
280
     0
281
     0
  0
CLASS
  1
SUN
  2
AcDbSun
  3
SCENEOE
 90
     1153
280
     0
281
     0
  0
CLASS
  1
ACDBPLACEHOLDER
  2
AcDbPlaceHolder
  3
ObjectDBX Classes
 90
        0
280
     0
281
     0
  0
CLASS
  1
LAYOUT
  2
AcDbLayout
  3
ObjectDBX Classes
 90
        0
280
     0
281
     0
  0
ENDSEC
  0
SECTION
  2
TABLES
  0
TABLE
  2
VPORT
  5
8
330
0
100
AcDbSymbolTable
 70
     1
  0
VPORT
  5
29
330
8
100
AcDbSymbolTableRecord
100
AcDbViewportTableRecord
  2
*Active
 70
     0
 10
0.0
 20
0.0
 11
1.0
 21
1.0
 12
139.7
 22
107.95
 13
0.0
 23
0.0
 14
10.0
 24
10.0
 15
10.0
 25
10.0
 16
0.0
 26
0.0
 36
1.0
 17
0.0
 27
0.0
 37
0.0
 40
215.9
 41
1.2941176471
 42
50.0
 43
0.0
 44
0.0
 50
0.0
 51
0.0
 71
     0
 72
  2000
 73
     1
 74
     3
 75
     0
 76
     0
 77
     0
 78
     0
281
     0
 65
     1
110
0.0
120
0.0
130
0.0
111
1.0
121
0.0
131
0.0
112
0.0
122
1.0
132
0.0
 79
     0
146
0.0
  0
ENDTAB
  0
TABLE
  2
LTYPE
  5
5
330
0
100
AcDbSymbolTable
 70
     6
  0
LTYPE
  5
14
330
5
100
AcDbSymbolTableRecord
100
AcDbLinetypeTableRecord
  2
ByBlock
 70
     0
  3

 72
    65
 73
     0
 40
0.0
  0
LTYPE
  5
15
330
5
100
AcDbSymbolTableRecord
100
AcDbLinetypeTableRecord
  2
ByLayer
 70
     0
  3

 72
    65
 73
     0
 40
0.0
  0
LTYPE
  5
16
330
5
100
AcDbSymbolTableRecord
100
AcDbLinetypeTableRecord
  2
Continuous
 70
     0
  3
Solid line
 72
    65
 73
     0
 40
0.0
  0
LTYPE
  5
6E
330
5
100
AcDbSymbolTableRecord
100
AcDbLinetypeTableRecord
  2
HIDDEN
 70
     0
  3
Hidden __ __ __ __ __ __ __ __ __ __ __ __ __ __
 72
    65
 73
     2
 40
1.905
 49
1.27
 74
     0
 49
-0.635
 74
     0
  0
LTYPE
  5
6F
330
5
100
AcDbSymbolTableRecord
100
AcDbLinetypeTableRecord
  2
PHANTOM
 70
     0
  3
Phantom ______  __  __  ______  __  __  ______
 72
    65
 73
     6
 40
12.7
 49
6.35
 74
     0
 49
-1.27
 74
     0
 49
1.27
 74
     0
 49
-1.27
 74
     0
 49
1.27
 74
     0
 49
-1.27
 74
     0
  0
LTYPE
  5
70
330
5
100
AcDbSymbolTableRecord
100
AcDbLinetypeTableRecord
  2
CENTER
 70
     0
  3
Center ____ _ ____ _ ____ _ ____ _ ____ _ ____
 72
    65
 73
     4
 40
10.16
 49
6.35
 74
     0
 49
-1.27
 74
     0
 49
1.27
 74
     0
 49
-1.27
 74
     0
  0
LTYPE
  5
71
330
5
100
AcDbSymbolTableRecord
100
AcDbLinetypeTableRecord
  2
CENTERX2
 70
     0
  3
Center (2x) ________  __  ________  __  _____
 72
    65
 73
     4
 40
20.32
 49
12.7
 74
     0
 49
-2.54
 74
     0
 49
2.54
 74
     0
 49
-2.54
 74
     0
  0
LTYPE
  5
72
330
5
100
AcDbSymbolTableRecord
100
AcDbLinetypeTableRecord
  2
DOT2
 70
     0
  3
Dot (.5x) ........................................
 72
    65
 73
     2
 40
0.635
 49
0.0
 74
     0
 49
-0.635
 74
     0
  0
ENDTAB
  0
TABLE
  2
LAYER
  5
2
330
0
100
AcDbSymbolTable
 70
    17
  0
LAYER
  5
10
330
2
100
AcDbSymbolTableRecord
100
AcDbLayerTableRecord
  2
0
 70
     0
 62
     7
  6
Continuous
370
    -3
390
F
  0
LAYER
  5
73
330
2
100
AcDbSymbolTableRecord
100
AcDbLayerTableRecord
  2
FORMAT
 70
     0
 62
     7
  6
Continuous
370
    -3
390
F
  0
LAYER
  5
74
330
2
100
AcDbSymbolTableRecord
100
AcDbLayerTableRecord
  2
YARDIMCI_GEOMETRI
 70
     0
 62
    -6
  6
Continuous
290
     0
370
    -3
390
F
  0
LAYER
  5
75
330
2
100
AcDbSymbolTableRecord
100
AcDbLayerTableRecord
  2
SAYFA_CERCEVESI
 70
     0
 62
     7
  6
Continuous
370
    25
390
F
  0
LAYER
  5
76
330
2
100
AcDbSymbolTableRecord
100
AcDbLayerTableRecord
  2
ANTET
 70
     0
 62
     7
  6
Continuous
370
    -3
390
F
  0
LAYER
  5
77
330
2
100
AcDbSymbolTableRecord
100
AcDbLayerTableRecord
  2
OLCU
 70
     0
 62
   150
  6
Continuous
370
    -3
390
F
  0
LAYER
  5
78
330
2
100
AcDbSymbolTableRecord
100
AcDbLayerTableRecord
  2
METIN
 70
     0
 62
    96
  6
Continuous
370
    -3
390
F
  0
LAYER
  5
79
330
2
100
AcDbSymbolTableRecord
100
AcDbLayerTableRecord
  2
BALON
 70
     0
 62
     5
  6
Continuous
370
    -3
390
F
  0
LAYER
  5
7A
330
2
100
AcDbSymbolTableRecord
100
AcDbLayerTableRecord
  2
VURGU
 70
     0
 62
     7
  6
Continuous
370
    -3
390
F
  0
LAYER
  5
7B
330
2
100
AcDbSymbolTableRecord
100
AcDbLayerTableRecord
  2
SILIK
 70
     0
 62
     7
  6
Continuous
370
    -3
390
F
  0
LAYER
  5
7C
330
2
100
AcDbSymbolTableRecord
100
AcDbLayerTableRecord
  2
MODEL
 70
     0
 62
     7
  6
Continuous
370
    -3
390
F
  0
LAYER
  5
7D
330
2
100
AcDbSymbolTableRecord
100
AcDbLayerTableRecord
  2
DETAYLANDıRMA
 70
     0
 62
   190
  6
Continuous
370
    -3
390
F
  0
LAYER
  5
7E
330
2
100
AcDbSymbolTableRecord
100
AcDbLayerTableRecord
  2
TOLERANS
 70
     0
 62
   230
  6
Continuous
370
    -3
390
F
  0
LAYER
  5
7F
330
2
100
AcDbSymbolTableRecord
100
AcDbLayerTableRecord
  2
MERKEZ_CIZGILERI
 70
     0
 62
    30
  6
Continuous
370
    -3
390
F
  0
LAYER
  5
80
330
2
100
AcDbSymbolTableRecord
100
AcDbLayerTableRecord
  2
KESIT-DETAY_CIZGILERI
 70
     0
 62
     7
  6
Continuous
370
    -3
390
F
  0
LAYER
  5
81
330
2
100
AcDbSymbolTableRecord
100
AcDbLayerTableRecord
  2
\U+041E\U+0421\U+0415\U+0412\U+042B\U+0415
 70
     0
 62
     7
  6
Continuous
370
    -3
390
F
  0
LAYER
  5
82
330
2
100
AcDbSymbolTableRecord
100
AcDbLayerTableRecord
  2
\U+0412\U+041E\U+0414\U+042F\U+041D\U+042B\U+0415_\U+0417\U+041D\U+0410\U+041A\U+0418
 70
     0
 62
    11
  6
Continuous
370
    -3
390
F
  0
ENDTAB
  0
TABLE
  2
STYLE
  5
3
330
0
100
AcDbSymbolTable
 70
     1
  0
STYLE
  5
11
330
3
100
AcDbSymbolTableRecord
100
AcDbTextStyleTableRecord
  2
Standard
 70
     0
 40
0.0
 41
1.0
 50
0.0
 71
     0
 42
3.5
  3
txt
  4

  0
ENDTAB
  0
TABLE
  2
VIEW
  5
6
330
0
100
AcDbSymbolTable
 70
     0
  0
ENDTAB
  0
TABLE
  2
UCS
  5
7
330
0
100
AcDbSymbolTable
 70
     0
  0
ENDTAB
  0
TABLE
  2
APPID
  5
9
330
0
100
AcDbSymbolTable
 70
     1
  0
APPID
  5
12
330
9
100
AcDbSymbolTableRecord
100
AcDbRegAppTableRecord
  2
ACAD
 70
     0
  0
ENDTAB
  0
TABLE
  2
DIMSTYLE
  5
A
330
0
100
AcDbSymbolTable
 70
     1
100
AcDbDimStyleTable
  0
DIMSTYLE
105
27
330
A
100
AcDbSymbolTableRecord
100
AcDbDimStyleTableRecord
  2
ISO-25
 70
     0
 41
2.5
 42
0.625
 43
3.75
 44
1.25
 73
     0
 74
     0
 77
     1
 78
     8
140
2.5
141
2.5
143
0.0393700787
147
0.625
171
     3
172
     1
178
     0
271
     2
272
     2
274
     3
278
    44
283
     0
284
     8
340
11
  0
ENDTAB
  0
TABLE
  2
BLOCK_RECORD
  5
1
330
0
100
AcDbSymbolTable
 70
     3
  0
BLOCK_RECORD
  5
1F
330
1
100
AcDbSymbolTableRecord
100
AcDbBlockTableRecord
  2
*Model_Space
340
22
  0
BLOCK_RECORD
  5
1B
330
1
100
AcDbSymbolTableRecord
100
AcDbBlockTableRecord
  2
*Paper_Space
340
1E
  0
BLOCK_RECORD
  5
23
330
1
100
AcDbSymbolTableRecord
100
AcDbBlockTableRecord
  2
*Paper_Space0
340
26
  0
BLOCK_RECORD
  5
88
330
1
100
AcDbSymbolTableRecord
100
AcDbBlockTableRecord
  2
SW_CENTERMARKSYMBOL_0
340
0
102
{BLKREFS
331
93
102
}
  0
BLOCK_RECORD
  5
9C
330
1
100
AcDbSymbolTableRecord
100
AcDbBlockTableRecord
  2
SW_CENTERMARKSYMBOL_1
340
0
102
{BLKREFS
331
A7
102
}
  0
ENDTAB
  0
ENDSEC
  0
SECTION
  2
BLOCKS
  0
BLOCK
  5
20
330
1F
100
AcDbEntity
  8
0
100
AcDbBlockBegin
  2
*Model_Space
 70
     0
 10
0.0
 20
0.0
 30
0.0
  3
*Model_Space
  1

  0
ENDBLK
  5
21
330
1F
100
AcDbEntity
  8
0
100
AcDbBlockEnd
  0
BLOCK
  5
1C
330
1B
100
AcDbEntity
 67
     1
  8
0
100
AcDbBlockBegin
  2
*Paper_Space
 70
     0
 10
0.0
 20
0.0
 30
0.0
  3
*Paper_Space
  1

  0
ENDBLK
  5
1D
330
1B
100
AcDbEntity
 67
     1
  8
0
100
AcDbBlockEnd
  0
BLOCK
  5
24
330
23
100
AcDbEntity
  8
0
100
AcDbBlockBegin
  2
*Paper_Space0
 70
     0
 10
0.0
 20
0.0
 30
0.0
  3
*Paper_Space0
  1

  0
ENDBLK
  5
25
330
23
100
AcDbEntity
  8
0
100
AcDbBlockEnd
  0
BLOCK
  5
89
330
88
100
AcDbEntity
  8
0
100
AcDbBlockBegin
  2
SW_CENTERMARKSYMBOL_0
 70
     0
 10
0.0
 20
0.0
 30
0.0
  3
SW_CENTERMARKSYMBOL_0
  1

  0
LINE
  5
8B
330
88
100
AcDbEntity
  8
FORMAT
 62
     0
100
AcDbLine
 10
0.0
 20
0.0
 30
0.0
 11
2.5
 21
0.0
 31
0.0
  0
LINE
  5
8C
330
88
100
AcDbEntity
  8
FORMAT
 62
     0
100
AcDbLine
 10
0.0
 20
0.0
 30
0.0
 11
0.0
 21
2.5
 31
0.0
  0
LINE
  5
8D
330
88
100
AcDbEntity
  8
FORMAT
 62
     0
100
AcDbLine
 10
0.0
 20
0.0
 30
0.0
 11
-2.5
 21
0.0
 31
0.0
  0
LINE
  5
8E
330
88
100
AcDbEntity
  8
FORMAT
 62
     0
100
AcDbLine
 10
0.0
 20
0.0
 30
0.0
 11
0.0
 21
-2.5
 31
0.0
  0
LINE
  5
8F
330
88
100
AcDbEntity
  8
FORMAT
 62
     0
100
AcDbLine
 10
5.0
 20
0.0
 30
0.0
 11
202.5
 21
0.0
 31
0.0
  0
LINE
  5
90
330
88
100
AcDbEntity
  8
FORMAT
 62
     0
100
AcDbLine
 10
0.0
 20
5.0
 30
0.0
 11
0.0
 21
202.5
 31
0.0
  0
LINE
  5
91
330
88
100
AcDbEntity
  8
FORMAT
 62
     0
100
AcDbLine
 10
-5.0
 20
0.0
 30
0.0
 11
-202.5
 21
0.0
 31
0.0
  0
LINE
  5
92
330
88
100
AcDbEntity
  8
FORMAT
 62
     0
100
AcDbLine
 10
0.0
 20
-5.0
 30
0.0
 11
0.0
 21
-202.5
 31
0.0
  0
ENDBLK
  5
8A
330
88
100
AcDbEntity
  8
0
100
AcDbBlockEnd
  0
BLOCK
  5
9D
330
9C
100
AcDbEntity
  8
0
100
AcDbBlockBegin
  2
SW_CENTERMARKSYMBOL_1
 70
     0
 10
0.0
 20
0.0
 30
0.0
  3
SW_CENTERMARKSYMBOL_1
  1

  0
LINE
  5
9F
330
9C
100
AcDbEntity
  8
FORMAT
 62
     0
100
AcDbLine
 10
0.0
 20
0.0
 30
0.0
 11
0.0
 21
2.5
 31
0.0
  0
LINE
  5
A0
330
9C
100
AcDbEntity
  8
FORMAT
 62
     0
100
AcDbLine
 10
0.0
 20
0.0
 30
0.0
 11
-2.5
 21
0.0
 31
0.0
  0
LINE
  5
A1
330
9C
100
AcDbEntity
  8
FORMAT
 62
     0
100
AcDbLine
 10
0.0
 20
0.0
 30
0.0
 11
0.0
 21
-2.5
 31
0.0
  0
LINE
  5
A2
330
9C
100
AcDbEntity
  8
FORMAT
 62
     0
100
AcDbLine
 10
0.0
 20
0.0
 30
0.0
 11
2.5
 21
0.0
 31
0.0
  0
LINE
  5
A3
330
9C
100
AcDbEntity
  8
FORMAT
 62
     0
100
AcDbLine
 10
0.0
 20
5.0
 30
0.0
 11
0.0
 21
82.5
 31
0.0
  0
LINE
  5
A4
330
9C
100
AcDbEntity
  8
FORMAT
 62
     0
100
AcDbLine
 10
-5.0
 20
0.0
 30
0.0
 11
-82.5
 21
0.0
 31
0.0
  0
LINE
  5
A5
330
9C
100
AcDbEntity
  8
FORMAT
 62
     0
100
AcDbLine
 10
0.0
 20
-5.0
 30
0.0
 11
0.0
 21
-82.5
 31
0.0
  0
LINE
  5
A6
330
9C
100
AcDbEntity
  8
FORMAT
 62
     0
100
AcDbLine
 10
5.0
 20
0.0
 30
0.0
 11
82.5
 21
0.0
 31
0.0
  0
ENDBLK
  5
9E
330
9C
100
AcDbEntity
  8
0
100
AcDbBlockEnd
  0
ENDSEC
  0
SECTION
  2
ENTITIES
  0
LINE
  5
83
330
1F
100
AcDbEntity
  8
0
  6
Continuous
 62
     7
370
    25
100
AcDbLine
 10
67.3450997034
 20
212.1390857656
 30
0.0
 11
67.3450997034
 21
50.4899808839
 31
0.0
  0
LINE
  5
84
330
1F
100
AcDbEntity
  8
0
  6
Continuous
 62
     7
370
    25
100
AcDbLine
 10
227.3450997034
 20
50.4899808839
 30
0.0
 11
227.3450997034
 21
212.1764321087
 31
0.0
  0
CIRCLE
  5
85
330
1F
100
AcDbEntity
  8
0
  6
Continuous
 62
     7
370
    25
100
AcDbCircle
 10
147.3450997034
 20
395.4899808839
 30
0.0
 40
176.3
  0
CIRCLE
  5
86
330
1F
100
AcDbEntity
  8
0
  6
Continuous
 62
     7
370
    25
100
AcDbCircle
 10
147.3450997034
 20
395.4899808839
 30
0.0
 40
200.0
  0
LINE
  5
87
330
1F
100
AcDbEntity
  8
0
  6
Continuous
 62
     7
370
    25
100
AcDbLine
 10
227.3450997034
 20
50.4899808839
 30
0.0
 11
67.3450997034
 21
50.4899808839
 31
0.0
  0
INSERT
  5
93
330
1F
100
AcDbEntity
  8
FORMAT
 62
     7
100
AcDbBlockReference
  2
SW_CENTERMARKSYMBOL_0
 10
147.3450997034
 20
395.4899808839
 30
0.0
  0
LINE
  5
94
330
1F
100
AcDbEntity
  8
0
  6
Continuous
 62
     7
370
    25
100
AcDbLine
 10
347.3450997034
 20
1224.2985254641
 30
0.0
 11
347.3450997034
 21
1841.2985254641
 31
0.0
  0
LINE
  5
95
330
1F
100
AcDbEntity
  8
0
  6
Continuous
 62
     7
370
    25
100
AcDbLine
 10
-52.6549002966
 20
1841.2985254641
 30
0.0
 11
-52.6549002966
 21
1224.2985254641
 31
0.0
  0
CIRCLE
  5
96
330
1F
100
AcDbEntity
  8
0
  6
Continuous
 62
     7
370
    25
100
AcDbCircle
 10
147.3450997034
 20
1532.7985254641
 30
0.0
 40
70.5
  0
CIRCLE
  5
97
330
1F
100
AcDbEntity
  8
0
  6
Continuous
 62
     7
370
    25
100
AcDbCircle
 10
147.3450997034
 20
1532.7985254641
 30
0.0
 40
79.99999999999977
  0
LINE
  5
98
330
1F
100
AcDbEntity
  8
0
  6
Continuous
 62
     7
370
    25
100
AcDbLine
 10
147.3450997034
 20
1841.2985254641
 30
0.0
 11
347.3450997034
 21
1841.2985254641
 31
0.0
  0
LINE
  5
99
330
1F
100
AcDbEntity
  8
0
  6
Continuous
 62
     7
370
    25
100
AcDbLine
 10
-52.6549002966
 20
1841.2985254641
 30
0.0
 11
147.3450997034
 21
1841.2985254641
 31
0.0
  0
LINE
  5
9A
330
1F
100
AcDbEntity
  8
0
  6
Continuous
 62
     7
370
    25
100
AcDbLine
 10
147.3450997034
 20
1224.2985254641
 30
0.0
 11
347.3450997034
 21
1224.2985254641
 31
0.0
  0
LINE
  5
9B
330
1F
100
AcDbEntity
  8
0
  6
Continuous
 62
     7
370
    25
100
AcDbLine
 10
-52.6549002966
 20
1224.2985254641
 30
0.0
 11
147.3450997034
 21
1224.2985254641
 31
0.0
  0
INSERT
  5
A7
330
1F
100
AcDbEntity
  8
FORMAT
100
AcDbBlockReference
  2
SW_CENTERMARKSYMBOL_1
 10
147.3450997034
 20
1532.7985254641
 30
0.0
  0
LINE
  5
A8
330
1F
100
AcDbEntity
  8
0
  6
Continuous
 62
     7
370
    25
100
AcDbLine
 10
-655.8107274638
 20
595.4899808839
 30
0.0
 11
-1272.8107274638
 21
595.4899808839
 31
0.0
  0
LINE
  5
A9
330
1F
100
AcDbEntity
  8
0
  6
Continuous
 62
     7
370
    25
100
AcDbLine
 10
-884.3642395
 20
195.4899808839
 30
0.0
 11
-655.8107274638
 21
195.4899808839
 31
0.0
  0
LINE
  5
AA
330
1F
100
AcDbEntity
  8
0
  6
Continuous
 62
     7
370
    25
100
AcDbLine
 10
-1272.8107274638
 20
195.4899808839
 30
0.0
 11
-1044.3107274638
 21
195.4899808839
 31
0.0
  0
LINE
  5
AB
330
1F
100
AcDbEntity
  8
0
  6
Continuous
 62
     7
370
    25
100
AcDbLine
 10
-1044.3107274638
 20
195.4899808839
 30
0.0
 11
-1044.3107274638
 21
50.4899808839
 31
0.0
  0
LINE
  5
AC
330
1F
100
AcDbEntity
  8
0
  6
Continuous
 62
     7
370
    25
100
AcDbLine
 10
-884.3107274638
 20
50.4899808839
 30
0.0
 11
-884.3107274638
 21
195.5114061575
 31
0.0
  0
LWPOLYLINE
  5
AD
330
1F
100
AcDbEntity
  8
0
  6
Continuous
 62
     7
370
    25
100
AcDbPolyline
 90
       41
 70
   128
 43
0.0
 10
-884.3642395
 20
195.5114136234
 10
-884.4652601409
 20
195.5519044951
 10
-885.1561375354
 20
195.8266414679
 10
-886.2881374349
 20
196.2728029476
 10
-887.880569543
 20
196.8909651768
 10
-889.9832154377
 20
197.6907221325
 10
-892.5394719685
 20
198.636956738
 10
-895.5439892854
 20
199.7124375982
 10
-898.9644450587
 20
200.8874715882
 10
-902.8822092282
 20
202.1678125746
 10
-907.1900148499
 20
203.4931689064
 10
-912.0506601284
 20
204.8826928465
 10
-917.2773648825
 20
206.2490307813
 10
-923.0048160468
 20
207.5904089115
 10
-929.0539192582
 20
208.8270693967
 10
-935.2533712928
 20
209.8978116163
 10
-941.6843021889
 20
210.7957602901
 10
-948.5282283265
 20
211.5081888091
 10
-955.5144065414
 20
211.9760161243
 10
-961.8609695817
 20
212.1701381686
 10
-968.225860262
 20
212.1451465829
 10
-974.7604899947
 20
211.8888642694
 10
-981.2129200687
 20
211.4093352014
 10
-987.1181728589
 20
210.7732290264
 10
-992.8735686396
 20
209.9749251713
 10
-998.5880014193
 20
209.0094176959
 10
-1004.0786884358
 20
207.9226843744
 10
-1009.4740308368
 20
206.7050147849
 10
-1014.5734531391
 20
205.4206735449
 10
-1019.4679110593
 20
204.0681209471
 10
-1023.9972998063
 20
202.7142383279
 10
-1028.2783409801
 20
201.3461016289
 10
-1032.1113039717
 20
200.0496621807
 10
-1035.5605535307
 20
198.8265598057
 10
-1038.4751996553
 20
197.7518486598
 10
-1040.7216699785
 20
196.8984835728
 10
-1042.4391890571
 20
196.2312131698
 10
-1043.6372159883
 20
195.7586136625
 10
-1044.2378559269
 20
195.5191183455
 10
-1044.3107274638
 20
195.4899808839
 10
-1044.3107274638
 20
195.4899808839
  0
LINE
  5
AE
330
1F
100
AcDbEntity
  8
0
  6
Continuous
 62
     7
370
    25
100
AcDbLine
 10
-1272.8107274638
 20
195.4899808839
 30
0.0
 11
-1272.8107274638
 21
595.4899808839
 31
0.0
  0
LINE
  5
AF
330
1F
100
AcDbEntity
  8
0
  6
Continuous
 62
     7
370
    25
100
AcDbLine
 10
-655.8107274638
 20
195.4899808839
 30
0.0
 11
-655.8107274638
 21
595.4899808839
 31
0.0
  0
LINE
  5
B0
330
1F
100
AcDbEntity
  8
0
  6
Continuous
 62
     7
370
    25
100
AcDbLine
 10
-884.3107274638
 20
50.4899808839
 30
0.0
 11
-1044.3107274638
 21
50.4899808839
 31
0.0
  0
LINE
  5
B1
330
1F
100
AcDbEntity
  8
0
  6
Continuous
 62
     7
370
    25
100
AcDbLine
 10
1391.8357131298
 20
195.4899808839
 30
0.0
 11
1620.3357131298
 21
195.4899808839
 31
0.0
  0
LINE
  5
B2
330
1F
100
AcDbEntity
  8
0
  6
Continuous
 62
     7
370
    25
100
AcDbLine
 10
1003.3357131298
 20
195.4899808839
 30
0.0
 11
1231.8887718099
 21
195.4899808839
 31
0.0
  0
LINE
  5
B3
330
1F
100
AcDbEntity
  8
0
  6
Continuous
 62
     7
370
    25
100
AcDbLine
 10
1620.3357131298
 20
595.4899808839
 30
0.0
 11
1003.3357131298
 21
595.4899808839
 31
0.0
  0
LINE
  5
B4
330
1F
100
AcDbEntity
  8
0
  6
Continuous
 62
     7
370
    25
100
AcDbLine
 10
1231.8357131298
 20
195.5111840426
 30
0.0
 11
1231.8357131298
 21
50.4899808839
 31
0.0
  0
LINE
  5
B5
330
1F
100
AcDbEntity
  8
0
  6
Continuous
 62
     7
370
    25
100
AcDbLine
 10
1391.8357131298
 20
50.4899808839
 30
0.0
 11
1391.8357131298
 21
195.4899808839
 31
0.0
  0
SPLINE
  5
B6
330
1F
100
AcDbEntity
  8
0
  6
Continuous
 62
     7
370
    25
100
AcDbSpline
210
0.0
220
0.0
230
1.0
 70
     8
 71
     3
 72
    46
 73
    42
 74
     0
 42
0.00000001
 43
0.00000001
 40
0.0
 40
0.0
 40
0.0
 40
0.0
 40
0.0249751588552362
 40
0.0501339160776292
 40
0.0758649542190906
 40
0.1017896390015386
 40
0.1267628937056678
 40
0.1519018933256406
 40
0.1775457953117296
 40
0.2033571601380475
 40
0.2294100985747603
 40
0.2556302256766874
 40
0.2823717418079817
 40
0.3092932527110569
 40
0.3364295388914496
 40
0.3637633991145285
 40
0.3917449310757468
 40
0.4199630340275726
 40
0.4458265824233336
 40
0.4718926031374573
 40
0.4986138900369547
 40
0.5255670642293139
 40
0.5497000133823399
 40
0.5739994970151635
 40
0.5988093036022863
 40
0.6237885425511981
 40
0.6484629811856399
 40
0.6732908618730024
 40
0.6985847443481186
 40
0.7240336103066369
 40
0.7505838359034124
 40
0.7773094371561898
 40
0.8045912843613948
 40
0.832069158843715
 40
0.8590662274846717
 40
0.8862664242577228
 40
0.9141319887003843
 40
0.9422386947067917
 40
0.9676371243558879
 40
0.993227300234669
 40
1.0
 40
1.0
 40
1.0
 40
1.0
 10
1391.835713129773
 20
195.4899808838502
 30
0.0
 10
1391.787219346825
 20
195.5094039946465
 30
0.0
 10
1391.68987529153
 20
195.548393000173
 30
0.0
 10
1390.89680756898
 20
195.8644199833258
 30
0.0
 10
1389.615667129566
 20
196.3692756415564
 30
0.0
 10
1387.818883743509
 20
197.0655177298324
 30
0.0
 10
1385.558505319511
 20
197.9214514766246
 30
0.0
 10
1382.853535481705
 20
198.9167435270117
 30
0.0
 10
1379.676707224164
 20
200.0443695251049
 30
0.0
 10
1376.031982914068
 20
201.2820133761265
 30
0.0
 10
1371.947950417117
 20
202.5964170668806
 30
0.0
 10
1367.420199888624
 20
203.9624814497157
 30
0.0
 10
1362.464307675394
 20
205.3453891261482
 30
0.0
 10
1357.092172721964
 20
206.7085264726915
 30
0.0
 10
1351.346376410256
 20
208.0068678792822
 30
0.0
 10
1345.218624554778
 20
209.2063602427945
 30
0.0
 10
1338.733830683961
 20
210.2631128317686
 30
0.0
 10
1332.132670810995
 20
211.1058620814382
 30
0.0
 10
1325.519297265332
 20
211.7149030876267
 30
0.0
 10
1318.919454010938
 20
212.0906551191178
 30
0.0
 10
1312.168194034672
 20
212.2290626810589
 30
0.0
 10
1305.577390424514
 20
212.1182025430474
 30
0.0
 10
1299.242454403943
 20
211.788123164238
 30
0.0
 10
1293.175241827462
 20
211.2722946778279
 30
0.0
 10
1287.168429747039
 20
210.5662549958675
 30
0.0
 10
1281.30259598384
 20
209.6904080166367
 30
0.0
 10
1275.640906015386
 20
208.6739001160961
 30
0.0
 10
1270.191374805416
 20
207.5400347713601
 30
0.0
 10
1264.954904070339
 20
206.308616714897
 30
0.0
 10
1259.905166432463
 20
204.9925458432583
 30
0.0
 10
1255.107495963711
 20
203.6269240387351
 30
0.0
 10
1250.588294118147
 20
202.2398588736666
 30
0.0
 10
1246.444915808275
 20
200.8843356969034
 30
0.0
 10
1242.751684375502
 20
199.6095322575752
 30
0.0
 10
1239.551980950046
 20
198.4558078116721
 30
0.0
 10
1236.852503065753
 20
197.4475872424644
 30
0.0
 10
1234.67780038791
 20
196.6123203184427
 30
0.0
 10
1233.115616993575
 20
195.9994801531852
 30
0.0
 10
1232.195354068875
 20
195.6338751073083
 30
0.0
 10
1231.796948172512
 20
195.4744861020795
 30
0.0
 10
1231.872881052673
 20
195.5048391456254
 30
0.0
 10
1231.888771809888
 20
195.5111912403268
 30
0.0
  0
LINE
  5
B7
330
1F
100
AcDbEntity
  8
0
  6
Continuous
 62
     7
370
    25
100
AcDbLine
 10
1620.3357131298
 20
595.4899808839
 30
0.0
 11
1620.3357131298
 21
195.4899808839
 31
0.0
  0
LINE
  5
B8
330
1F
100
AcDbEntity
  8
0
  6
Continuous
 62
     7
370
    25
100
AcDbLine
 10
1003.3357131298
 20
595.4899808839
 30
0.0
 11
1003.3357131298
 21
195.4899808839
 31
0.0
  0
LINE
  5
B9
330
1F
100
AcDbEntity
  8
0
  6
Continuous
 62
     7
370
    25
100
AcDbLine
 10
1391.8357131298
 20
50.4899808839
 30
0.0
 11
1231.8357131298
 21
50.4899808839
 31
0.0
  0
LINE
  5
BA
330
1F
100
AcDbEntity
  8
0
  6
Continuous
 62
     7
370
    25
100
AcDbLine
 10
-52.6549002966
 20
-938.8546818545
 30
0.0
 11
-52.6549002966
 21
-1555.8546818545
 31
0.0
  0
LINE
  5
BB
330
1F
100
AcDbEntity
  8
0
  6
Continuous
 62
     7
370
    25
100
AcDbLine
 10
347.3450997034
 20
-1555.8546818545
 30
0.0
 11
347.3450997034
 21
-938.8546818545
 31
0.0
  0
LINE
  5
BC
330
1F
100
AcDbEntity
  8
0
  6
Continuous
 62
     7
370
    25
100
AcDbLine
 10
347.3450997034
 20
-1555.8546818545
 30
0.0
 11
-52.6549002966
 21
-1555.8546818545
 31
0.0
  0
LINE
  5
BD
330
1F
100
AcDbEntity
  8
0
  6
Continuous
 62
     7
370
    25
100
AcDbLine
 10
347.3450997034
 20
-938.8546818545
 30
0.0
 11
-52.6549002966
 21
-938.8546818545
 31
0.0
  0
LINE
  5
BE
330
1F
100
AcDbEntity
  8
0
  6
Continuous
 62
     7
370
    25
100
AcDbLine
 10
1508.480288549
 20
-823.6439716622
 30
0.0
 11
1072.1954045569
 21
-571.7820691648
 31
0.0
  0
LINE
  5
BF
330
1F
100
AcDbEntity
  8
0
  6
Continuous
 62
     7
370
    25
100
AcDbLine
 10
872.2116580297
 20
-918.2016141171
 30
0.0
 11
1110.3459732893
 21
-1055.6736281424
 31
0.0
  0
LINE
  5
C0
330
1F
100
AcDbEntity
  8
0
  6
Continuous
 62
     7
370
    25
100
AcDbLine
 10
1270.3459732893
 20
-1148.0396620761
 30
0.0
 11
1308.4965420218
 21
-1170.0635166144
 31
0.0
  0
LINE
  5
C1
330
1F
100
AcDbEntity
  8
0
  6
Continuous
 62
     7
370
    25
100
AcDbLine
 10
1110.3459732893
 20
-1027.5612136629
 30
0.0
 11
1110.3459732893
 21
-1152.6293729902
 31
0.0
  0
LINE
  5
C2
330
1F
100
AcDbEntity
  8
0
  6
Continuous
 62
     7
370
    25
100
AcDbLine
 10
1270.3459732893
 20
-1152.6293729902
 30
0.0
 11
1270.3459732893
 21
-1027.5625195077
 31
0.0
  0
SPLINE
  5
C3
330
1F
100
AcDbEntity
  8
0
  6
Continuous
 62
     7
370
    25
100
AcDbSpline
210
0.0
220
0.0
230
1.0
 70
     8
 71
     3
 72
    17
 73
    13
 74
     0
 42
0.00000001
 43
0.00000001
 40
0.0
 40
0.0
 40
0.0
 40
0.0
 40
0.0999377864785094
 40
0.2017535578100751
 40
0.3035718390018479
 40
0.4073091416283642
 40
0.5072393086699822
 40
0.6088407063195516
 40
0.7104459283056224
 40
0.8137297825418748
 40
0.9179802905653737
 40
1.0
 40
1.0
 40
1.0
 40
1.0
 10
1133.777430794391
 20
-1001.574630793879
 30
0.0
 10
1132.316207812833
 20
-1002.441902429538
 30
0.0
 10
1129.366303220472
 20
-1004.192743069974
 30
0.0
 10
1125.420912603543
 20
-1006.861676865892
 30
0.0
 10
1121.829992424599
 20
-1009.569490960482
 30
0.0
 10
1118.726025046045
 20
-1012.256569027947
 30
0.0
 10
1116.091353661262
 20
-1014.927582189676
 30
0.0
 10
1113.951581132753
 20
-1017.560581255625
 30
0.0
 10
1112.273675223946
 20
-1020.201156786357
 30
0.0
 10
1111.104461873435
 20
-1022.842153807043
 30
0.0
 10
1110.433236605071
 20
-1025.299124709662
 30
0.0
 10
1110.405752291322
 20
-1026.870093873332
 30
0.0
 10
1110.393650220157
 20
-1027.561833197488
 30
0.0
  0
SPLINE
  5
C4
330
1F
100
AcDbEntity
  8
0
  6
Continuous
 62
     7
370
    25
100
AcDbSpline
210
0.0
220
0.0
230
1.0
 70
     8
 71
     3
 72
    36
 73
    32
 74
     0
 42
0.00000001
 43
0.00000001
 40
0.0
 40
0.0
 40
0.0
 40
0.0
 40
0.0314133445808388
 40
0.0676513002241228
 40
0.1038883043245487
 40
0.1407765340271785
 40
0.1766254313357192
 40
0.2127496081522579
 40
0.2497813576926613
 40
0.2871443741592563
 40
0.3204322471768919
 40
0.3543680159356626
 40
0.3883041792526521
 40
0.4229095836585175
 40
0.4549820075523249
 40
0.4875774398177216
 40
0.5201742783115642
 40
0.5532936819039064
 40
0.5872241988583373
 40
0.6216935449824487
 40
0.6561633730083782
 40
0.6911819723668174
 40
0.7272373845291131
 40
0.763545233651245
 40
0.8006698066119936
 40
0.8380882288664532
 40
0.873359527827059
 40
0.9093454320683568
 40
0.9453299998035607
 40
0.9820748990187517
 40
0.9999999999999999
 40
0.9999999999999999
 40
0.9999999999999999
 40
0.9999999999999999
 10
1270.31725471248
 20
-1027.563045533057
 30
0.0
 10
1270.287543848398
 20
-1026.102223396525
 30
0.0
 10
1270.223558984235
 20
-1022.956219102771
 30
0.0
 10
1269.436953207738
 20
-1018.16040006505
 30
0.0
 10
1268.093288380077
 20
-1013.208433278784
 30
0.0
 10
1266.168739949333
 20
-1008.428040218577
 30
0.0
 10
1263.691277087661
 20
-1003.863652856477
 30
0.0
 10
1260.666445320683
 20
-999.5576046698473
 30
0.0
 10
1257.057403502099
 20
-995.5197322193828
 30
0.0
 10
1253.027484822591
 20
-991.9627917324491
 30
0.0
 10
1248.671371854862
 20
-988.8978324988738
 30
0.0
 10
1244.079423166851
 20
-986.320501964762
 30
0.0
 10
1239.080009368944
 20
-984.1209606825238
 30
0.0
 10
1233.863115873526
 20
-982.3840380790449
 30
0.0
 10
1228.46209019961
 20
-981.0746135701445
 30
0.0
 10
1222.963478378841
 20
-980.1715568468351
 30
0.0
 10
1217.232100584591
 20
-979.6313494381784
 30
0.0
 10
1211.279704095596
 20
-979.4506848763918
 30
0.0
 10
1205.102395549956
 20
-979.6257127669536
 30
0.0
 10
1198.761400372528
 20
-980.1511526962412
 30
0.0
 10
1192.306087793704
 20
-981.0089054450847
 30
0.0
 10
1185.739195033809
 20
-982.1881997224887
 30
0.0
 10
1179.082045008764
 20
-983.6792807602573
 30
0.0
 10
1172.360942256893
 20
-985.4712029938011
 30
0.0
 10
1165.669282470657
 20
-987.532624431091
 30
0.0
 10
1159.202383739069
 20
-989.7907540703836
 30
0.0
 10
1153.009524630978
 20
-992.2020214484965
 30
0.0
 10
1147.14394512311
 20
-994.7236710339901
 30
0.0
 10
1141.504051566848
 20
-997.3965581984928
 30
0.0
 10
1137.07935599875
 20
-999.6977017835158
 30
0.0
 10
1134.592738463373
 20
-1001.111181587258
 30
0.0
 10
1133.777430794391
 20
-1001.574630793879
 30
0.0
  0
LWPOLYLINE
  5
C5
330
1F
100
AcDbEntity
  8
0
  6
Continuous
 62
     7
370
    25
100
AcDbPolyline
 90
      151
 70
   128
 43
0.0
 10
972.2035312933
 20
-908.3000040181
 10
978.125643037
 20
-904.7379926742
 10
984.0373653843
 20
-900.8957322993
 10
989.9283271655
 20
-896.7799635237
 10
995.7881936319
 20
-892.3979068044
 10
1001.6066845863
 20
-887.7572497578
 10
1007.3735924186
 20
-882.8661336734
 10
1013.0788000129
 20
-877.7331392307
 10
1018.7122984963
 20
-872.3672714463
 10
1024.2642047982
 20
-866.7779438756
 10
1029.7247789885
 20
-860.9749620983
 10
1035.0844413644
 20
-854.9685065165
 10
1040.333789257
 20
-848.7691144941
 10
1045.4636135264
 20
-842.3876618713
 10
1050.4649147175
 20
-835.8353438846
 10
1055.3289188488
 20
-829.1236555261
 10
1060.047092804
 20
-822.2643713779
 10
1064.6111593029
 20
-815.2695249551
 10
1069.013111422
 20
-808.1513875953
 10
1073.2452266414
 20
-800.9224469301
 10
1077.300080393
 20
-793.5953849779
 10
1081.1705590854
 20
-786.1830558951
 10
1084.8498725838
 20
-778.6984634256
 10
1088.3315661221
 20
-771.1547380879
 10
1091.6095316268
 20
-763.5651141396
 10
1094.6780184324
 20
-755.9429063601
 10
1097.5316433705
 20
-748.301486692
 10
1100.1654002132
 20
-740.6542607817
 10
1102.5746684561
 20
-733.0146444623
 10
1104.755221424
 20
-725.3960402165
 10
1106.7032336861
 20
-717.8118136651
 10
1108.4152877668
 20
-710.2752701187
 10
1109.8883801416
 20
-702.7996312355
 10
1111.1199265059
 20
-695.3980118263
 10
1112.1077663089
 20
-688.0833968467
 10
1112.8501665439
 20
-680.8686186169
 10
1113.3458247887
 20
-673.7663343096
 10
1113.5938714901
 20
-666.7890037446
 10
1113.5938714901
 20
-659.9488675309
 10
1113.3458247887
 20
-653.2579255915
 10
1112.8501665439
 20
-646.7279161122
 10
1112.1077663089
 20
-640.3702949487
 10
1111.1199265059
 20
-634.1962155287
 10
1109.8883801416
 20
-628.2165092855
 10
1108.4152877668
 20
-622.4416666558
 10
1106.7032336861
 20
-616.8818186758
 10
1104.755221424
 20
-611.5467192082
 10
1102.5746684561
 20
-606.4457278303
 10
1100.1654002132
 20
-601.5877934143
 10
1097.5316433705
 20
-596.9814384279
 10
1094.6780184324
 20
-592.634743983
 10
1091.6095316268
 20
-588.5553356587
 10
1088.3315661221
 20
-584.7503701234
 10
1084.8498725838
 20
-581.2265225795
 10
1081.1705590854
 20
-577.9899750531
 10
1077.300080393
 20
-575.0464055483
 10
1073.2452266414
 20
-572.4009780863
 10
1069.013111422
 20
-570.0583336457
 10
1064.6111593029
 20
-568.0225820209
 10
1060.047092804
 20
-566.2972946121
 10
1055.3289188488
 20
-564.8854981596
 10
1050.4649147175
 20
-563.7896694341
 10
1045.4636135264
 20
-563.0117308915
 10
1040.333789257
 20
-562.5530473005
 10
1035.0844413644
 20
-562.4144233479
 10
1029.7247789885
 20
-562.5961022271
 10
1024.2642047982
 20
-563.0977652118
 10
1018.7122984963
 20
-563.9185322146
 10
1013.0788000129
 20
-565.0569633312
 10
1007.3735924186
 20
-566.5110613667
 10
1001.6066845863
 20
-568.2782753389
 10
995.7881936319
 20
-570.3555049541
 10
989.9283271655
 20
-572.7391060457
 10
984.0373653843
 20
-575.4248969674
 10
978.125643037
 20
-578.4081659292
 10
972.2035312933
 20
-581.6836792638
 10
966.2814195496
 20
-585.2456906077
 10
960.3696972022
 20
-589.0879509826
 10
954.478735421
 20
-593.2037197582
 10
948.6188689547
 20
-597.5857764776
 10
942.8003780002
 20
-602.2264335242
 10
937.0334701679
 20
-607.1175496086
 10
931.3282625737
 20
-612.2505440512
 10
925.6947640903
 20
-617.6164118356
 10
920.1428577883
 20
-623.2057394064
 10
914.6822835981
 20
-629.0087211836
 10
909.3226212221
 20
-635.0151767655
 10
904.0732733295
 20
-641.2145687879
 10
898.9434490602
 20
-647.5960214106
 10
893.942147869
 20
-654.1483393974
 10
889.0781437378
 20
-660.8600277559
 10
884.3599697825
 20
-667.7193119041
 10
879.7959032836
 20
-674.7141583269
 10
875.3939511645
 20
-681.8322956867
 10
871.1618359451
 20
-689.0612363519
 10
867.1069821935
 20
-696.3882983041
 10
863.2365035011
 20
-703.8006273869
 10
859.5571900027
 20
-711.2852198564
 10
856.0754964644
 20
-718.8289451941
 10
852.7975309597
 20
-726.4185691424
 10
849.7290441541
 20
-734.0407769218
 10
846.875419216
 20
-741.68219659
 10
844.2416623733
 20
-749.3294225002
 10
841.8323941304
 20
-756.9690388197
 10
839.6518411625
 20
-764.5876430655
 10
837.7038289005
 20
-772.1718696168
 10
835.9917748197
 20
-779.7084131633
 10
834.5186824449
 20
-787.1840520465
 10
833.2871360806
 20
-794.5856714557
 10
832.2992962776
 20
-801.9002864352
 10
831.5568960426
 20
-809.115064665
 10
831.0612377979
 20
-816.2173489724
 10
830.8131910964
 20
-823.1946795374
 10
830.8131910964
 20
-830.0348157511
 10
831.0612377979
 20
-836.7257576905
 10
831.5568960426
 20
-843.2557671697
 10
832.2992962776
 20
-849.6133883333
 10
833.2871360806
 20
-855.7874677533
 10
834.5186824449
 20
-861.7671739965
 10
835.9917748197
 20
-867.5420166262
 10
837.7038289005
 20
-873.1018646062
 10
839.6518411625
 20
-878.4369640738
 10
841.8323941304
 20
-883.5379554517
 10
844.2416623733
 20
-888.3958898677
 10
846.875419216
 20
-893.0022448541
 10
849.7290441541
 20
-897.348939299
 10
852.7975309597
 20
-901.4283476233
 10
856.0754964644
 20
-905.2333131586
 10
859.5571900027
 20
-908.7571607025
 10
863.2365035011
 20
-911.9937082289
 10
867.1069821935
 20
-914.9372777336
 10
871.1618359451
 20
-917.5827051957
 10
875.3939511645
 20
-919.9253496363
 10
879.7959032836
 20
-921.961101261
 10
884.3599697825
 20
-923.6863886699
 10
889.0781437378
 20
-925.0981851224
 10
893.942147869
 20
-926.1940138479
 10
898.9434490602
 20
-926.9719523904
 10
904.0732733295
 20
-927.4306359815
 10
909.3226212221
 20
-927.5692599341
 10
914.6822835981
 20
-927.3875810549
 10
920.1428577883
 20
-926.8859180702
 10
925.6947640903
 20
-926.0651510674
 10
931.3282625737
 20
-924.9267199508
 10
937.0334701679
 20
-923.4726219153
 10
942.8003780002
 20
-921.7054079431
 10
948.6188689547
 20
-919.6281783279
 10
954.478735421
 20
-917.2445772363
 10
960.3696972022
 20
-914.5587863146
 10
966.2814195496
 20
-911.5755173527
 10
972.2035312933
 20
-908.3000040181
  0
LWPOLYLINE
  5
C6
330
1F
100
AcDbEntity
  8
0
  6
Continuous
 62
     7
370
    25
100
AcDbPolyline
 90
       58
 70
   128
 43
0.0
 10
1408.4884152854
 20
-1160.1619065154
 10
1414.4105270291
 20
-1156.5998951716
 10
1420.3222493764
 20
-1152.7576347966
 10
1426.2132111576
 20
-1148.641866021
 10
1432.073077624
 20
-1144.2598093017
 10
1437.8915685784
 20
-1139.6191522551
 10
1443.6584764107
 20
-1134.7280361707
 10
1449.363684005
 20
-1129.5950417281
 10
1454.9971824884
 20
-1124.2291739436
 10
1460.5490887903
 20
-1118.6398463729
 10
1466.0096629806
 20
-1112.8368645956
 10
1471.3693253565
 20
-1106.8304090138
 10
1476.6186732491
 20
-1100.6310169914
 10
1481.7484975185
 20
-1094.2495643686
 10
1486.7497987096
 20
-1087.6972463819
 10
1491.6138028409
 20
-1080.9855580234
 10
1496.3319767961
 20
-1074.1262738752
 10
1500.896043295
 20
-1067.1314274524
 10
1505.2979954141
 20
-1060.0132900926
 10
1509.5301106335
 20
-1052.7843494274
 10
1513.5849643851
 20
-1045.4572874752
 10
1517.4554430775
 20
-1038.0449583924
 10
1521.1347565759
 20
-1030.5603659229
 10
1524.6164501142
 20
-1023.0166405852
 10
1527.8944156189
 20
-1015.4270166369
 10
1530.9629024245
 20
-1007.8048088574
 10
1533.8165273626
 20
-1000.1633891893
 10
1536.4502842053
 20
-992.516163279
 10
1538.8595524482
 20
-984.8765469596
 10
1541.0401054161
 20
-977.2579427138
 10
1542.9881176782
 20
-969.6737161625
 10
1544.7001717589
 20
-962.137172616
 10
1546.1732641337
 20
-954.6615337328
 10
1547.404810498
 20
-947.2599143236
 10
1548.392650301
 20
-939.945299344
 10
1549.135050536
 20
-932.7305211142
 10
1549.6307087808
 20
-925.6282368069
 10
1549.8787554822
 20
-918.6509062419
 10
1549.8787554822
 20
-911.8107700282
 10
1549.6307087808
 20
-905.1198280888
 10
1549.135050536
 20
-898.5898186095
 10
1548.392650301
 20
-892.232197446
 10
1547.404810498
 20
-886.058118026
 10
1546.1732641337
 20
-880.0784117828
 10
1544.7001717589
 20
-874.3035691531
 10
1542.9881176782
 20
-868.7437211731
 10
1541.0401054161
 20
-863.4086217055
 10
1538.8595524482
 20
-858.3076303276
 10
1536.4502842053
 20
-853.4496959116
 10
1533.8165273626
 20
-848.8433409252
 10
1530.9629024245
 20
-844.4966464803
 10
1527.8944156189
 20
-840.417238156
 10
1524.6164501142
 20
-836.6122726207
 10
1521.1347565759
 20
-833.0884250768
 10
1517.4554430775
 20
-829.8518775504
 10
1513.5849643851
 20
-826.9083080456
 10
1509.5301106335
 20
-824.2628805836
 10
1508.480288549
 20
-823.6439716622
  0
LWPOLYLINE
  5
C7
330
1F
100
AcDbEntity
  8
0
  6
Continuous
 62
     7
370
    25
100
AcDbPolyline
 90
       20
 70
   128
 43
0.0
 10
1308.4965420218
 20
-1170.0635166144
 10
1311.6788351566
 20
-1171.7872521336
 10
1316.0807872757
 20
-1173.8230037583
 10
1320.6448537746
 20
-1175.5482911672
 10
1325.3630277299
 20
-1176.9600876197
 10
1330.2270318611
 20
-1178.0559163452
 10
1335.2283330523
 20
-1178.8338548877
 10
1340.3581573216
 20
-1179.2925384788
 10
1345.6075052142
 20
-1179.4311624314
 10
1350.9671675902
 20
-1179.2494835522
 10
1356.4277417804
 20
-1178.7478205675
 10
1361.9796480824
 20
-1177.9270535647
 10
1367.6131465658
 20
-1176.7886224481
 10
1373.31835416
 20
-1175.3345244126
 10
1379.0852619923
 20
-1173.5673104404
 10
1384.9037529468
 20
-1171.4900808252
 10
1390.7636194131
 20
-1169.1064797336
 10
1396.6545811943
 20
-1166.4206888119
 10
1402.5663035417
 20
-1163.43741985
 10
1408.4884152854
 20
-1160.1619065154
  0
LWPOLYLINE
  5
C8
330
1F
100
AcDbEntity
  8
0
  6
Continuous
 62
     7
370
    25
100
AcDbPolyline
 90
      142
 70
   128
 43
0.0
 10
972.2035312933
 20
-888.9479867764
 10
977.756872119
 20
-885.5992055562
 10
983.2991873006
 20
-881.9712614302
 10
988.8194730842
 20
-878.0713573456
 10
994.3067694535
 20
-873.907236201
 10
999.7501818894
 20
-869.4871654735
 10
1005.1389030003
 20
-864.8199208043
 10
1010.4622339794
 20
-859.9147685758
 10
1015.7096058457
 20
-854.7814475136
 10
1020.870600428
 20
-849.4301493516
 10
1025.9349710495
 20
-843.8714985969
 10
1030.8926628709
 20
-838.116531436
 10
1035.7338328541
 20
-832.1766738236
 10
1040.4488693042
 20
-826.0637187971
 10
1045.0284109527
 20
-819.7898030628
 10
1049.4633655437
 20
-813.3673828998
 10
1053.7449278853
 20
-806.8092094288
 10
1057.8645973318
 20
-800.1283032961
 10
1061.8141946608
 20
-793.3379288225
 10
1065.5858783125
 20
-786.4515676678
 10
1069.1721599581
 20
-779.4828920649
 10
1072.5659193673
 20
-772.445737674
 10
1075.7604185449
 20
-765.3540761137
 10
1078.7493151086
 20
-758.2219872218
 10
1081.5266748809
 20
-751.0636311004
 10
1084.086983671
 20
-743.8932200031
 10
1086.4251582228
 20
-736.7249901174
 10
1088.5365563072
 20
-729.5731733001
 10
1090.4169859388
 20
-722.4519688216
 10
1092.0627136985
 20
-715.3755151742
 10
1093.4704721462
 20
-708.3578620016
 10
1094.6374663079
 20
-701.4129422046
 10
1095.5613792247
 20
-694.5545442785
 10
1096.2403765529
 20
-687.7962849376
 10
1096.6731102062
 20
-681.1515820803
 10
1096.8587210321
 20
-674.6336281491
 10
1096.7968405173
 20
-668.255363938
 10
1096.4875915201
 20
-662.0294529004
 10
1095.9315880255
 20
-655.9682560062
 10
1095.1299339271
 20
-650.083807201
 10
1094.0842208348
 20
-644.3877895129
 10
1092.7965249153
 20
-638.8915118581
 10
1091.2694027696
 20
-633.6058865869
 10
1089.5058863573
 20
-628.5414078191
 10
1087.5094769771
 20
-623.7081306085
 10
1085.2841383149
 20
-619.1156509795
 10
1082.8342885747
 20
-614.7730868755
 10
1080.1647917064
 20
-610.6890600555
 10
1077.280947749
 20
-606.8716789766
 10
1074.1884823076
 20
-603.3285226957
 10
1070.8935351861
 20
-600.0666258216
 10
1067.4026481971
 20
-597.0924645485
 10
1063.7227521735
 20
-594.4119437985
 10
1059.8611532083
 20
-592.0303854973
 10
1055.8255181487
 20
-589.9525180085
 10
1051.6238593747
 20
-588.1824667456
 10
1047.2645188907
 20
-586.7237459816
 10
1042.7561517639
 20
-585.5792518716
 10
1038.1077089397
 20
-584.7512567026
 10
1033.3284194713
 20
-584.2414043825
 10
1028.4277721953
 20
-584.0507071757
 10
1023.4154968934
 20
-584.179543694
 10
1018.3015449742
 20
-584.6276581444
 10
1013.0960697159
 20
-585.3941608371
 10
1007.8094061077
 20
-586.477529952
 10
1002.4520503309
 20
-587.87561456
 10
997.0346389195
 20
-589.5856388934
 10
991.5679276424
 20
-591.6042078574
 10
986.0627701488
 20
-593.9273137699
 10
980.5300964193
 20
-596.5503443194
 10
974.9808910655
 20
-599.4680917214
 10
969.426171521
 20
-602.6747630585
 10
963.8769661672
 20
-606.1639917817
 10
958.3442924377
 20
-609.9288503503
 10
952.8391349441
 20
-613.961863986
 10
947.372423667
 20
-618.2550255137
 10
941.9550122556
 20
-622.7998112584
 10
936.5976564788
 20
-627.5871979689
 10
931.3109928707
 20
-632.6076807319
 10
926.1055176123
 20
-637.8512918435
 10
920.9915656931
 20
-643.3076205994
 10
915.9792903912
 20
-648.9658339639
 10
911.0786431153
 20
-654.814698078
 10
906.2993536468
 20
-660.8426005634
 10
901.6509108227
 20
-667.0375735778
 10
897.1425436958
 20
-673.3873175757
 10
892.7832032119
 20
-679.879225728
 10
888.5815444378
 20
-686.5004089521
 10
884.5459093783
 20
-693.2377215016
 10
880.684310413
 20
-700.0777870661
 10
877.0044143895
 20
-707.0070253285
 10
873.5135274004
 20
-714.0116789276
 10
870.218580279
 20
-721.0778407721
 10
867.1261148376
 20
-728.1914816517
 10
864.2422708801
 20
-735.338478091
 10
861.5727740118
 20
-742.5046403901
 10
859.1229242716
 20
-749.6757407971
 10
856.8975856095
 20
-756.8375417558
 10
854.9011762292
 20
-763.9758241734
 10
853.1376598169
 20
-771.076415651
 10
851.6105376712
 20
-778.1252186213
 10
850.3228417517
 20
-785.1082383387
 10
849.2771286595
 20
-792.0116106637
 10
848.4754745611
 20
-798.8216295897
 10
847.9194710665
 20
-805.5247744545
 10
847.6102220692
 20
-812.1077367843
 10
847.5483415545
 20
-818.5574467169
 10
847.7339523803
 20
-824.8610989502
 10
848.1666860337
 20
-831.0061781661
 10
848.8456833619
 20
-836.9804838787
 10
849.7695962786
 20
-842.772154657
 10
850.9365904403
 20
-848.3696916748
 10
852.344348888
 20
-853.7619815405
 10
853.9900766477
 20
-858.9383183617
 10
855.8705062793
 20
-863.8884250007
 10
857.9819043637
 20
-868.602473479
 10
860.3200789156
 20
-873.0711044898
 10
862.8803877057
 20
-877.2854459798
 10
865.6577474779
 20
-881.237130764
 10
868.6466440416
 20
-884.9183131381
 10
871.8411432193
 20
-888.3216844553
 10
875.2349026285
 20
-891.4404876369
 10
878.821184274
 20
-894.2685305877
 10
882.5928679257
 20
-896.8001984903
 10
886.5424652547
 20
-899.0304649525
 10
890.6621347012
 20
-900.9549019866
 10
894.9436970428
 20
-902.5696888009
 10
899.3786516338
 20
-903.8716193859
 10
903.9581932824
 20
-904.8581088787
 10
908.6732297325
 20
-905.5271986959
 10
913.5143997157
 20
-905.8775604215
 10
918.4720915371
 20
-905.9084984447
 10
923.5364621585
 20
-905.619951341
 10
928.6974567409
 20
-905.012491994
 10
933.9448286072
 20
-904.0873264579
 10
939.2681595862
 20
-902.8462915632
 10
944.6568806972
 20
-901.29185127
 10
950.100293133
 20
-899.4270917754
 10
955.5875895023
 20
-897.2557153869
 10
961.1078752859
 20
-894.7820331713
 10
966.6501904675
 20
-892.0109563957
 10
972.2035312933
 20
-888.9479867764
  0
LWPOLYLINE
  5
C9
330
1F
100
AcDbEntity
  8
0
  6
Continuous
 62
     7
370
    25
100
AcDbPolyline
 90
       90
 70
   128
 43
0.0
 10
1240.197001363
 20
-1181.407758932
 10
1243.5892633333
 20
-1179.3060753091
 10
1246.7162699109
 20
-1177.0714896972
 10
1249.5624425062
 20
-1174.7151346894
 10
1252.1136016306
 20
-1172.2487495277
 10
1254.3570375376
 20
-1169.6846216189
 10
1256.2815735423
 20
-1167.0355253195
 10
1257.8776217033
 20
-1164.3146582937
 10
1259.1372305888
 20
-1161.5355757644
 10
1260.0541248907
 20
-1158.7121229808
 10
1260.6237366878
 20
-1155.8583662428
 10
1260.8432282027
 20
-1152.9885228228
 10
1260.7115059397
 20
-1150.1168901364
 10
1260.2292261326
 20
-1147.2577745132
 10
1259.3987914751
 20
-1144.4254199234
 10
1258.2243391508
 20
-1141.6339370151
 10
1256.7117202222
 20
-1138.8972328157
 10
1254.8684704806
 20
-1136.228941448
 10
1252.7037729036
 20
-1133.6423562052
 10
1250.2284119057
 20
-1131.150363325
 10
1247.4547196107
 20
-1128.7653777905
 10
1244.3965144142
 20
-1126.4992814797
 10
1241.0690321407
 20
-1124.3633639704
 10
1237.4888501394
 20
-1122.3682662962
 10
1233.673804697
 20
-1120.5239279334
 10
1229.642902178
 20
-1118.839537283
 10
1225.4162243359
 20
-1117.3234858943
 10
1221.0148282672
 20
-1115.9833266592
 10
1216.4606415058
 20
-1114.8257361836
 10
1211.7763527808
 20
-1113.8564815249
 10
1206.9852989832
 20
-1113.0803914612
 10
1202.111348902
 20
-1112.5013324341
 10
1197.1787843114
 20
-1112.1221892866
 10
1192.2121789999
 20
-1111.9448508907
 10
1187.2362763454
 20
-1111.9702007374
 10
1182.2758660447
 20
-1112.1981125351
 10
1177.3556606123
 20
-1112.6274508385
 10
1172.5001722643
 20
-1113.256076706
 10
1167.7335907992
 20
-1114.0808583551
 10
1163.0796630864
 20
-1115.097686765
 10
1158.5615747594
 20
-1116.3014961477
 10
1154.2018347071
 20
-1117.6862891856
 10
1150.0221629351
 20
-1119.2451669093
 10
1146.0433823579
 20
-1120.9703630684
 10
1142.2853150603
 20
-1122.8532828224
 10
1138.7666835444
 20
-1124.8845455598
 10
1135.5050174555
 20
-1127.054031632
 10
1132.51656625
 20
-1129.3509327682
 10
1129.8162182415
 20
-1131.7638059228
 10
1127.4174264279
 20
-1134.2806302829
 10
1125.3321414693
 20
-1136.8888671561
 10
1123.5707521506
 20
-1139.5755224377
 10
1122.1420336247
 20
-1142.3272113461
 10
1121.0531036954
 20
-1145.1302251056
 10
1120.309387357
 20
-1147.9705992427
 10
1119.9145897666
 20
-1150.8341831562
 10
1119.8706777862
 20
-1153.7067106151
 10
1120.177870183
 20
-1156.5738708323
 10
1120.8346365399
 20
-1159.4213797595
 10
1121.8377048799
 20
-1162.2350512507
 10
1123.1820779671
 20
-1165.000867736
 10
1124.8610582024
 20
-1167.7050500568
 10
1126.8662809906
 20
-1170.3341261127
 10
1129.1877564127
 20
-1172.8749979792
 10
1131.8139189949
 20
-1175.3150071603
 10
1134.7316853274
 20
-1177.6419976532
 10
1137.926519245
 20
-1179.8443765081
 10
1141.3825042459
 20
-1181.9111715845
 10
1145.0824227867
 20
-1183.8320862132
 10
1149.0078420592
 20
-1185.5975504942
 10
1153.1392058221
 20
-1187.1987689732
 10
1157.455931829
 20
-1188.6277644603
 10
1161.9365143681
 20
-1189.8774177718
 10
1166.5586314024
 20
-1190.9415031979
 10
1171.2992557775
 20
-1191.8147195185
 10
1176.1347699411
 20
-1192.4927164137
 10
1181.041083605
 20
-1192.9721161372
 10
1185.9937537612
 20
-1193.2505303437
 10
1190.9681064562
 20
-1193.3265719875
 10
1195.9393597151
 20
-1193.199862233
 10
1200.8827470041
 20
-1192.8710323419
 10
1205.7736406165
 20
-1192.3417205281
 10
1210.5876743664
 20
-1191.6145637965
 10
1215.3008649796
 20
-1190.6931848053
 10
1219.8897315777
 20
-1189.5821738183
 10
1224.3314126581
 20
-1188.2870658363
 10
1228.6037799891
 20
-1186.8143130222
 10
1232.6855488516
 20
-1185.1712525565
 10
1236.5563840783
 20
-1183.3660700836
 10
1240.197001363
 20
-1181.407758932
  0
LWPOLYLINE
  5
CA
330
1F
100
AcDbEntity
  8
0
  6
Continuous
 62
     7
370
    25
100
AcDbPolyline
 90
       95
 70
   128
 43
0.0
 10
1246.9145157842
 20
-1185.2856974631
 10
1250.5665533031
 20
-1183.0315700069
 10
1253.9496310928
 20
-1180.6416589585
 10
1257.0486395068
 20
-1178.1266382409
 10
1259.8497376211
 20
-1175.4977405472
 10
1262.3404150517
 20
-1172.7667071725
 10
1264.5095478284
 20
-1169.945735575
 10
1266.3474480777
 20
-1167.0474248986
 10
1267.845907291
 20
-1164.0847197023
 10
1268.9982329856
 20
-1161.0708521467
 10
1269.7992785953
 20
-1158.0192828961
 10
1270.2454664559
 20
-1154.9436409994
 10
1270.3348037842
 20
-1151.8576630199
 10
1270.0668915779
 20
-1148.7751316846
 10
1269.4429263979
 20
-1145.7098143265
 10
1268.4656950243
 20
-1142.6754013972
 10
1267.1395620096
 20
-1139.6854453213
 10
1265.4704501857
 20
-1136.7532999687
 10
1263.4658142112
 20
-1133.8920610121
 10
1261.1346072771
 20
-1131.1145074393
 10
1258.4872411194
 20
-1128.433044479
 10
1255.535539518
 20
-1125.8596481955
 10
1252.2926854889
 20
-1123.4058120014
 10
1248.7731624052
 20
-1121.0824953248
 10
1244.9926893116
 20
-1118.9000746619
 10
1240.9681507185
 20
-1116.8682972333
 10
1236.7175211922
 20
-1114.9962374502
 10
1232.2597850762
 20
-1113.292256386
 10
1227.614851702
 20
-1111.7639644337
 10
1222.8034664697
 20
-1110.4181873164
 10
1217.8471181936
 20
-1109.2609356011
 10
1212.7679431284
 20
-1108.2973778551
 10
1207.5886261029
 20
-1107.5318175611
 10
1202.3322992042
 20
-1106.9676738972
 10
1197.0224384642
 20
-1106.6074664661
 10
1191.6827590101
 20
-1106.4528040414
 10
1186.3371091463
 20
-1106.5043773833
 10
1181.0093638431
 20
-1106.7619561525
 10
1175.7233181041
 20
-1107.2243899398
 10
1170.5025806928
 20
-1107.8896134036
 10
1165.37046869
 20
-1108.7546554945
 10
1160.3499033536
 20
-1109.8156527245
 10
1155.4633077471
 20
-1111.0678664224
 10
1150.7325065929
 20
-1112.5057038978
 10
1146.1786287973
 20
-1114.1227434195
 10
1141.8220130839
 20
-1115.9117628966
 10
1137.6821171563
 20
-1117.8647721336
 10
1133.7774307944
 20
-1119.9730485173
 10
1130.1253932755
 20
-1122.2271759736
 10
1126.7423154858
 20
-1124.6170870219
 10
1123.6433070718
 20
-1127.1321077395
 10
1120.8422089575
 20
-1129.7610054333
 10
1118.351531527
 20
-1132.4920388079
 10
1116.1823987503
 20
-1135.3130104055
 10
1114.3444985009
 20
-1138.2113210819
 10
1112.8460392877
 20
-1141.1740262782
 10
1111.693713593
 20
-1144.1878938337
 10
1110.8926679833
 20
-1147.2394630844
 10
1110.4464801227
 20
-1150.3151049811
 10
1110.3571427944
 20
-1153.4010829605
 10
1110.6250550008
 20
-1156.4836142959
 10
1111.2490201807
 20
-1159.5489316539
 10
1112.2262515543
 20
-1162.5833445833
 10
1113.5523845691
 20
-1165.5733006591
 10
1115.221496393
 20
-1168.5054460118
 10
1117.2261323674
 20
-1171.3666849684
 10
1119.5573393015
 20
-1174.1442385411
 10
1122.2047054592
 20
-1176.8257015015
 10
1125.1564070606
 20
-1179.399097785
 10
1128.3992610898
 20
-1181.8529339791
 10
1131.9187841734
 20
-1184.1762506557
 10
1135.6992572671
 20
-1186.3586713185
 10
1139.7237958602
 20
-1188.3904487471
 10
1143.9744253864
 20
-1190.2625085302
 10
1148.4321615024
 20
-1191.9664895945
 10
1153.0770948766
 20
-1193.4947815467
 10
1157.8884801089
 20
-1194.8405586641
 10
1162.844828385
 20
-1195.9978103793
 10
1167.9240034502
 20
-1196.9613681254
 10
1173.1033204757
 20
-1197.7269284194
 10
1178.3596473744
 20
-1198.2910720832
 10
1183.6695081144
 20
-1198.6512795144
 10
1189.0091875686
 20
-1198.805941939
 10
1194.3548374323
 20
-1198.7543685972
 10
1199.6825827356
 20
-1198.496789828
 10
1204.9686284746
 20
-1198.0343560407
 10
1210.1893658858
 20
-1197.3691325768
 10
1215.3214778887
 20
-1196.5040904859
 10
1220.3420432251
 20
-1195.443093256
 10
1225.2286388315
 20
-1194.1908795581
 10
1229.9594399857
 20
-1192.7530420827
 10
1234.5133177813
 20
-1191.1360025609
 10
1238.8699334947
 20
-1189.3469830839
 10
1243.0098294224
 20
-1187.3939738468
 10
1246.9145157842
 20
-1185.2856974631
  0
ENDSEC
  0
SECTION
  2
OBJECTS
  0
DICTIONARY
  5
C
330
0
100
AcDbDictionary
281
     1
  3
ACAD_GROUP
350
D
  3
ACAD_LAYOUT
350
1A
  3
ACAD_MLINESTYLE
350
17
  3
ACAD_PLOTSETTINGS
350
19
  3
ACAD_PLOTSTYLENAME
350
E
  3
ACAD_SCALELIST
350
47
  3
DWGPROPS
350
CB
  0
DICTIONARY
  5
D
102
{ACAD_REACTORS
330
C
102
}
330
C
100
AcDbDictionary
281
     1
  0
DICTIONARY
  5
1A
102
{ACAD_REACTORS
330
C
102
}
330
C
100
AcDbDictionary
281
     1
  3
Layout1
350
1E
  3
Layout2
350
26
  3
Model
350
22
  0
DICTIONARY
  5
17
102
{ACAD_REACTORS
330
C
102
}
330
C
100
AcDbDictionary
281
     1
  3
Standard
350
18
  0
DICTIONARY
  5
19
102
{ACAD_REACTORS
330
C
102
}
330
C
100
AcDbDictionary
281
     1
  0
ACDBDICTIONARYWDFLT
  5
E
102
{ACAD_REACTORS
330
C
102
}
330
C
100
AcDbDictionary
281
     1
  3
Normal
350
F
100
AcDbDictionaryWithDefault
340
F
  0
DICTIONARY
  5
47
102
{ACAD_REACTORS
330
C
102
}
330
C
100
AcDbDictionary
281
     1
  3
A0
350
48
  3
A1
350
49
  3
A2
350
4A
  3
A3
350
4B
  3
A4
350
4C
  3
A5
350
4D
  3
A6
350
4E
  3
A7
350
4F
  3
A8
350
50
  3
A9
350
51
  3
B0
350
52
  3
B1
350
53
  3
B2
350
54
  3
B3
350
55
  3
B4
350
56
  3
B5
350
57
  3
B6
350
58
  3
B7
350
59
  3
B8
350
5A
  3
B9
350
5B
  3
C0
350
5C
  3
C1
350
5D
  3
C2
350
5E
  3
C3
350
5F
  3
C4
350
60
  3
C5
350
61
  3
C6
350
62
  3
C7
350
63
  3
C8
350
64
  3
C9
350
65
  3
D0
350
66
  3
D1
350
67
  3
D2
350
68
  0
XRECORD
  5
CB
102
{ACAD_REACTORS
330
C
102
}
330
C
100
AcDbXrecord
280
     1
  1
DWGPROPS COOKIE
  2

  3

  4

  6

  7

  8
b.kav
  9

300
=
301
=
302
=
303
=
304
=
305
=
306
=
307
=
308
=
309
=
 40
0.0
 41
2459921.411954375
 42
2459921.411954502
  1

 90
        0
  0
LAYOUT
  5
1E
102
{ACAD_REACTORS
330
1A
102
}
330
1A
100
AcDbPlotSettings
  1

  2
none_device
  4

  6

 40
0.0
 41
0.0
 42
0.0
 43
0.0
 44
0.0
 45
0.0
 46
0.0
 47
0.0
 48
0.0
 49
0.0
140
0.0
141
0.0
142
1.0
143
1.0
 70
   688
 72
     1
 73
     0
 74
     5
  7

 75
    16
147
1.0
148
0.0
149
0.0
100
AcDbLayout
  1
Layout1
 70
     1
 71
     1
 10
0.0
 20
0.0
 11
420.0
 21
297.0
 12
0.0
 22
0.0
 32
0.0
 14
1.0000000000E+20
 24
1.0000000000E+20
 34
1.0000000000E+20
 15
-1.0000000000E+20
 25
-1.0000000000E+20
 35
-1.0000000000E+20
146
0.0
 13
0.0
 23
0.0
 33
0.0
 16
1.0
 26
0.0
 36
0.0
 17
0.0
 27
1.0
 37
0.0
 76
     0
330
1B
  0
LAYOUT
  5
26
102
{ACAD_REACTORS
330
1A
102
}
330
1A
100
AcDbPlotSettings
  1

  2
none_device
  4

  6

 40
0.0
 41
0.0
 42
0.0
 43
0.0
 44
0.0
 45
0.0
 46
0.0
 47
0.0
 48
0.0
 49
0.0
140
0.0
141
0.0
142
1.0
143
1.0
 70
   688
 72
     1
 73
     0
 74
     5
  7

 75
    16
147
1.0
148
0.0
149
0.0
100
AcDbLayout
  1
Layout2
 70
     1
 71
     2
 10
0.0
 20
0.0
 11
0.0
 21
0.0
 12
0.0
 22
0.0
 32
0.0
 14
0.0
 24
0.0
 34
0.0
 15
0.0
 25
0.0
 35
0.0
146
0.0
 13
0.0
 23
0.0
 33
0.0
 16
1.0
 26
0.0
 36
0.0
 17
0.0
 27
1.0
 37
0.0
 76
     0
330
23
  0
LAYOUT
  5
22
102
{ACAD_REACTORS
330
1A
102
}
330
1A
100
AcDbPlotSettings
  1

  2
none_device
  4
Letter_(8.50_x_11.00_Inches)
  6

 40
6.35
 41
6.35
 42
6.35000508
 43
6.35000508
 44
215.9
 45
279.4
 46
0.0
 47
0.0
 48
0.0
 49
0.0
140
0.0
141
0.0
142
1.0
143
1.0
 70
  1712
 72
     1
 73
     0
 74
     0
  7

 75
     0
147
1.0
148
0.0
149
0.0
100
AcDbLayout
  1
Model
 70
     1
 71
     0
 10
0.0
 20
0.0
 11
279.4
 21
215.9
 12
0.0
 22
0.0
 32
0.0
 14
0.0
 24
0.0
 34
0.0
 15
279.4
 25
215.9
 35
0.0
146
0.0
 13
0.0
 23
0.0
 33
0.0
 16
1.0
 26
0.0
 36
0.0
 17
0.0
 27
1.0
 37
0.0
 76
     0
330
1F
331
29
  0
MLINESTYLE
  5
18
102
{ACAD_REACTORS
330
17
102
}
330
17
100
AcDbMlineStyle
  2
Standard
 70
     0
  3

 62
   256
 51
90.0
 52
90.0
 71
     2
 49
0.5
 62
   256
  6
BYLAYER
 49
-0.5
 62
   256
  6
BYLAYER
  0
ACDBPLACEHOLDER
  5
F
102
{ACAD_REACTORS
330
E
102
}
330
E
  0
SCALE
  5
48
102
{ACAD_REACTORS
330
47
102
}
330
47
100
AcDbScale
 70
     0
300
1:1
140
1.0
141
1.0
290
     1
  0
SCALE
  5
49
102
{ACAD_REACTORS
330
47
102
}
330
47
100
AcDbScale
 70
     0
300
1:2
140
1.0
141
2.0
290
     0
  0
SCALE
  5
4A
102
{ACAD_REACTORS
330
47
102
}
330
47
100
AcDbScale
 70
     0
300
1:4
140
1.0
141
4.0
290
     0
  0
SCALE
  5
4B
102
{ACAD_REACTORS
330
47
102
}
330
47
100
AcDbScale
 70
     0
300
1:5
140
1.0
141
5.0
290
     0
  0
SCALE
  5
4C
102
{ACAD_REACTORS
330
47
102
}
330
47
100
AcDbScale
 70
     0
300
1:8
140
1.0
141
8.0
290
     0
  0
SCALE
  5
4D
102
{ACAD_REACTORS
330
47
102
}
330
47
100
AcDbScale
 70
     0
300
1:10
140
1.0
141
10.0
290
     0
  0
SCALE
  5
4E
102
{ACAD_REACTORS
330
47
102
}
330
47
100
AcDbScale
 70
     0
300
1:16
140
1.0
141
16.0
290
     0
  0
SCALE
  5
4F
102
{ACAD_REACTORS
330
47
102
}
330
47
100
AcDbScale
 70
     0
300
1:20
140
1.0
141
20.0
290
     0
  0
SCALE
  5
50
102
{ACAD_REACTORS
330
47
102
}
330
47
100
AcDbScale
 70
     0
300
1:30
140
1.0
141
30.0
290
     0
  0
SCALE
  5
51
102
{ACAD_REACTORS
330
47
102
}
330
47
100
AcDbScale
 70
     0
300
1:40
140
1.0
141
40.0
290
     0
  0
SCALE
  5
52
102
{ACAD_REACTORS
330
47
102
}
330
47
100
AcDbScale
 70
     0
300
1:50
140
1.0
141
50.0
290
     0
  0
SCALE
  5
53
102
{ACAD_REACTORS
330
47
102
}
330
47
100
AcDbScale
 70
     0
300
1:100
140
1.0
141
100.0
290
     0
  0
SCALE
  5
54
102
{ACAD_REACTORS
330
47
102
}
330
47
100
AcDbScale
 70
     0
300
2:1
140
2.0
141
1.0
290
     0
  0
SCALE
  5
55
102
{ACAD_REACTORS
330
47
102
}
330
47
100
AcDbScale
 70
     0
300
4:1
140
4.0
141
1.0
290
     0
  0
SCALE
  5
56
102
{ACAD_REACTORS
330
47
102
}
330
47
100
AcDbScale
 70
     0
300
8:1
140
8.0
141
1.0
290
     0
  0
SCALE
  5
57
102
{ACAD_REACTORS
330
47
102
}
330
47
100
AcDbScale
 70
     0
300
10:1
140
10.0
141
1.0
290
     0
  0
SCALE
  5
58
102
{ACAD_REACTORS
330
47
102
}
330
47
100
AcDbScale
 70
     0
300
100:1
140
100.0
141
1.0
290
     0
  0
SCALE
  5
59
102
{ACAD_REACTORS
330
47
102
}
330
47
100
AcDbScale
 70
     0
300
1/128" = 1'-0"
140
0.0078125
141
12.0
290
     0
  0
SCALE
  5
5A
102
{ACAD_REACTORS
330
47
102
}
330
47
100
AcDbScale
 70
     0
300
1/64" = 1'-0"
140
0.015625
141
12.0
290
     0
  0
SCALE
  5
5B
102
{ACAD_REACTORS
330
47
102
}
330
47
100
AcDbScale
 70
     0
300
1/32" = 1'-0"
140
0.03125
141
12.0
290
     0
  0
SCALE
  5
5C
102
{ACAD_REACTORS
330
47
102
}
330
47
100
AcDbScale
 70
     0
300
1/16" = 1'-0"
140
0.0625
141
12.0
290
     0
  0
SCALE
  5
5D
102
{ACAD_REACTORS
330
47
102
}
330
47
100
AcDbScale
 70
     0
300
3/32" = 1'-0"
140
0.09375
141
12.0
290
     0
  0
SCALE
  5
5E
102
{ACAD_REACTORS
330
47
102
}
330
47
100
AcDbScale
 70
     0
300
1/8" = 1'-0"
140
0.125
141
12.0
290
     0
  0
SCALE
  5
5F
102
{ACAD_REACTORS
330
47
102
}
330
47
100
AcDbScale
 70
     0
300
3/16" = 1'-0"
140
0.1875
141
12.0
290
     0
  0
SCALE
  5
60
102
{ACAD_REACTORS
330
47
102
}
330
47
100
AcDbScale
 70
     0
300
1/4" = 1'-0"
140
0.25
141
12.0
290
     0
  0
SCALE
  5
61
102
{ACAD_REACTORS
330
47
102
}
330
47
100
AcDbScale
 70
     0
300
3/8" = 1'-0"
140
0.375
141
12.0
290
     0
  0
SCALE
  5
62
102
{ACAD_REACTORS
330
47
102
}
330
47
100
AcDbScale
 70
     0
300
1/2" = 1'-0"
140
0.5
141
12.0
290
     0
  0
SCALE
  5
63
102
{ACAD_REACTORS
330
47
102
}
330
47
100
AcDbScale
 70
     0
300
3/4" = 1'-0"
140
0.75
141
12.0
290
     0
  0
SCALE
  5
64
102
{ACAD_REACTORS
330
47
102
}
330
47
100
AcDbScale
 70
     0
300
1" = 1'-0"
140
1.0
141
12.0
290
     0
  0
SCALE
  5
65
102
{ACAD_REACTORS
330
47
102
}
330
47
100
AcDbScale
 70
     0
300
1-1/2" = 1'-0"
140
1.5
141
12.0
290
     0
  0
SCALE
  5
66
102
{ACAD_REACTORS
330
47
102
}
330
47
100
AcDbScale
 70
     0
300
3" = 1'-0"
140
3.0
141
12.0
290
     0
  0
SCALE
  5
67
102
{ACAD_REACTORS
330
47
102
}
330
47
100
AcDbScale
 70
     0
300
6" = 1'-0"
140
6.0
141
12.0
290
     0
  0
SCALE
  5
68
102
{ACAD_REACTORS
330
47
102
}
330
47
100
AcDbScale
 70
     0
300
1'-0" = 1'-0"
140
12.0
141
12.0
290
     0
  0
ENDSEC
  0
EOF
